ISO-10303-21;
HEADER;
/* Generated by software containing ST-Developer
 * from STEP Tools, Inc. (www.steptools.com) 
 */
/* OPTION: strings as raw bytes, not using required /X/ escapes */

FILE_DESCRIPTION(
/* description */ ('Unknown'),
/* implementation_level */ '2;1');

FILE_NAME(
/* name */ 'ProbeAdapterOR1',
/* time_stamp */ '2023-10-06T14:31:26-07:00',
/* author */ ('Unknown'),
/* organization */ ('Unknown'),
/* preprocessor_version */ 'ST-DEVELOPER v18.102',
/* originating_system */ 'Solid Edge',
/* authorisation */ 'Unknown');

FILE_SCHEMA (('AUTOMOTIVE_DESIGN {1 0 10303 214 3 1 1}'));
ENDSEC;

DATA;
#10=PROPERTY_DEFINITION_REPRESENTATION(#14,#12);
#11=PROPERTY_DEFINITION_REPRESENTATION(#15,#13);
#12=REPRESENTATION('',(#16),#558);
#13=REPRESENTATION('',(#17),#558);
#14=PROPERTY_DEFINITION('pmi validation property','',#563);
#15=PROPERTY_DEFINITION('pmi validation property','',#563);
#16=VALUE_REPRESENTATION_ITEM('number of annotations',COUNT_MEASURE(0.));
#17=VALUE_REPRESENTATION_ITEM('number of views',COUNT_MEASURE(0.));
#18=SHAPE_REPRESENTATION_RELATIONSHIP('','',#327,#19);
#19=ADVANCED_BREP_SHAPE_REPRESENTATION('',(#325),#558);
#20=VERTEX_LOOP('',#227);
#21=CONICAL_SURFACE('',#358,1.6637,1.02974425867665);
#22=PLANE('',#335);
#23=PLANE('',#336);
#24=PLANE('',#340);
#25=PLANE('',#342);
#26=PLANE('',#343);
#27=PLANE('',#344);
#28=PLANE('',#345);
#29=PLANE('',#347);
#30=PLANE('',#348);
#31=PLANE('',#349);
#32=PLANE('',#352);
#33=LINE('',#474,#55);
#34=LINE('',#478,#56);
#35=LINE('',#482,#57);
#36=LINE('',#486,#58);
#37=LINE('',#488,#59);
#38=LINE('',#491,#60);
#39=LINE('',#493,#61);
#40=LINE('',#495,#62);
#41=LINE('',#497,#63);
#42=LINE('',#502,#64);
#43=LINE('',#504,#65);
#44=LINE('',#518,#66);
#45=LINE('',#522,#67);
#46=LINE('',#527,#68);
#47=LINE('',#528,#69);
#48=LINE('',#530,#70);
#49=LINE('',#531,#71);
#50=LINE('',#533,#72);
#51=LINE('',#534,#73);
#52=LINE('',#539,#74);
#53=LINE('',#541,#75);
#54=LINE('',#547,#76);
#55=VECTOR('',#367,1000.);
#56=VECTOR('',#370,1000.);
#57=VECTOR('',#373,1000.);
#58=VECTOR('',#376,1000.);
#59=VECTOR('',#379,1000.);
#60=VECTOR('',#380,1000.);
#61=VECTOR('',#381,1000.);
#62=VECTOR('',#382,1000.);
#63=VECTOR('',#385,1000.);
#64=VECTOR('',#388,1000.);
#65=VECTOR('',#389,1000.);
#66=VECTOR('',#392,1000.);
#67=VECTOR('',#395,1000.);
#68=VECTOR('',#402,1000.);
#69=VECTOR('',#403,1000.);
#70=VECTOR('',#406,1000.);
#71=VECTOR('',#407,1000.);
#72=VECTOR('',#410,1000.);
#73=VECTOR('',#411,1000.);
#74=VECTOR('',#418,1000.);
#75=VECTOR('',#421,1000.);
#76=VECTOR('',#428,1000.);
#77=CIRCLE('',#330,2.5146);
#78=CIRCLE('',#331,2.5146);
#79=CIRCLE('',#332,2.5146);
#80=CIRCLE('',#333,2.5146);
#81=CIRCLE('',#334,2.5146);
#82=CIRCLE('',#337,1.9939);
#83=CIRCLE('',#339,1.9939);
#84=CIRCLE('',#341,1.6637);
#85=CIRCLE('',#346,0.6);
#86=CIRCLE('',#350,0.6);
#87=CIRCLE('',#351,0.6);
#88=CIRCLE('',#357,1.6637);
#89=ORIENTED_EDGE('',*,*,#163,.F.);
#90=ORIENTED_EDGE('',*,*,#164,.F.);
#91=ORIENTED_EDGE('',*,*,#165,.T.);
#92=ORIENTED_EDGE('',*,*,#166,.F.);
#93=ORIENTED_EDGE('',*,*,#167,.T.);
#94=ORIENTED_EDGE('',*,*,#168,.T.);
#95=ORIENTED_EDGE('',*,*,#169,.F.);
#96=ORIENTED_EDGE('',*,*,#170,.F.);
#97=ORIENTED_EDGE('',*,*,#171,.F.);
#98=ORIENTED_EDGE('',*,*,#172,.F.);
#99=ORIENTED_EDGE('',*,*,#173,.F.);
#100=ORIENTED_EDGE('',*,*,#174,.T.);
#101=ORIENTED_EDGE('',*,*,#175,.F.);
#102=ORIENTED_EDGE('',*,*,#176,.T.);
#103=ORIENTED_EDGE('',*,*,#177,.T.);
#104=ORIENTED_EDGE('',*,*,#178,.F.);
#105=ORIENTED_EDGE('',*,*,#179,.F.);
#106=ORIENTED_EDGE('',*,*,#180,.F.);
#107=ORIENTED_EDGE('',*,*,#181,.F.);
#108=ORIENTED_EDGE('',*,*,#182,.T.);
#109=ORIENTED_EDGE('',*,*,#179,.T.);
#110=ORIENTED_EDGE('',*,*,#183,.T.);
#111=ORIENTED_EDGE('',*,*,#184,.F.);
#112=ORIENTED_EDGE('',*,*,#185,.T.);
#113=ORIENTED_EDGE('',*,*,#186,.T.);
#114=ORIENTED_EDGE('',*,*,#165,.F.);
#115=ORIENTED_EDGE('',*,*,#187,.F.);
#116=ORIENTED_EDGE('',*,*,#170,.T.);
#117=ORIENTED_EDGE('',*,*,#188,.F.);
#118=ORIENTED_EDGE('',*,*,#184,.T.);
#119=ORIENTED_EDGE('',*,*,#178,.T.);
#120=ORIENTED_EDGE('',*,*,#189,.F.);
#121=ORIENTED_EDGE('',*,*,#176,.F.);
#122=ORIENTED_EDGE('',*,*,#190,.F.);
#123=ORIENTED_EDGE('',*,*,#171,.T.);
#124=ORIENTED_EDGE('',*,*,#187,.T.);
#125=ORIENTED_EDGE('',*,*,#183,.F.);
#126=ORIENTED_EDGE('',*,*,#188,.T.);
#127=ORIENTED_EDGE('',*,*,#169,.T.);
#128=ORIENTED_EDGE('',*,*,#191,.F.);
#129=ORIENTED_EDGE('',*,*,#174,.F.);
#130=ORIENTED_EDGE('',*,*,#192,.T.);
#131=ORIENTED_EDGE('',*,*,#180,.T.);
#132=ORIENTED_EDGE('',*,*,#185,.F.);
#133=ORIENTED_EDGE('',*,*,#193,.T.);
#134=ORIENTED_EDGE('',*,*,#181,.T.);
#135=ORIENTED_EDGE('',*,*,#192,.F.);
#136=ORIENTED_EDGE('',*,*,#177,.F.);
#137=ORIENTED_EDGE('',*,*,#189,.T.);
#138=ORIENTED_EDGE('',*,*,#166,.T.);
#139=ORIENTED_EDGE('',*,*,#194,.T.);
#140=ORIENTED_EDGE('',*,*,#172,.T.);
#141=ORIENTED_EDGE('',*,*,#190,.T.);
#142=ORIENTED_EDGE('',*,*,#195,.F.);
#143=ORIENTED_EDGE('',*,*,#196,.T.);
#144=ORIENTED_EDGE('',*,*,#197,.T.);
#145=ORIENTED_EDGE('',*,*,#173,.T.);
#146=ORIENTED_EDGE('',*,*,#195,.T.);
#147=ORIENTED_EDGE('',*,*,#175,.T.);
#148=ORIENTED_EDGE('',*,*,#198,.F.);
#149=ORIENTED_EDGE('',*,*,#167,.F.);
#150=ORIENTED_EDGE('',*,*,#194,.F.);
#151=ORIENTED_EDGE('',*,*,#198,.T.);
#152=ORIENTED_EDGE('',*,*,#191,.T.);
#153=ORIENTED_EDGE('',*,*,#168,.F.);
#154=ORIENTED_EDGE('',*,*,#164,.T.);
#155=ORIENTED_EDGE('',*,*,#197,.F.);
#156=ORIENTED_EDGE('',*,*,#163,.T.);
#157=ORIENTED_EDGE('',*,*,#196,.F.);
#158=ORIENTED_EDGE('',*,*,#193,.F.);
#159=ORIENTED_EDGE('',*,*,#182,.F.);
#160=ORIENTED_EDGE('',*,*,#199,.T.);
#161=ORIENTED_EDGE('',*,*,#186,.F.);
#162=ORIENTED_EDGE('',*,*,#199,.F.);
#163=EDGE_CURVE('',#200,#200,#228,.T.);
#164=EDGE_CURVE('',#201,#201,#229,.T.);
#165=EDGE_CURVE('',#202,#202,#77,.T.);
#166=EDGE_CURVE('',#203,#204,#78,.F.);
#167=EDGE_CURVE('',#203,#205,#33,.T.);
#168=EDGE_CURVE('',#205,#206,#79,.F.);
#169=EDGE_CURVE('',#207,#206,#34,.F.);
#170=EDGE_CURVE('',#208,#207,#80,.T.);
#171=EDGE_CURVE('',#209,#208,#35,.T.);
#172=EDGE_CURVE('',#210,#209,#81,.F.);
#173=EDGE_CURVE('',#204,#210,#36,.T.);
#174=EDGE_CURVE('',#211,#212,#37,.T.);
#175=EDGE_CURVE('',#213,#212,#38,.T.);
#176=EDGE_CURVE('',#213,#214,#39,.T.);
#177=EDGE_CURVE('',#214,#211,#40,.T.);
#178=EDGE_CURVE('',#215,#216,#41,.T.);
#179=EDGE_CURVE('',#217,#215,#82,.T.);
#180=EDGE_CURVE('',#218,#217,#42,.T.);
#181=EDGE_CURVE('',#216,#218,#43,.T.);
#182=EDGE_CURVE('',#219,#219,#230,.T.);
#183=EDGE_CURVE('',#215,#220,#44,.F.);
#184=EDGE_CURVE('',#221,#220,#83,.T.);
#185=EDGE_CURVE('',#221,#217,#45,.T.);
#186=EDGE_CURVE('',#222,#222,#84,.T.);
#187=EDGE_CURVE('',#208,#220,#46,.T.);
#188=EDGE_CURVE('',#221,#207,#47,.T.);
#189=EDGE_CURVE('',#214,#216,#48,.T.);
#190=EDGE_CURVE('',#209,#213,#49,.T.);
#191=EDGE_CURVE('',#212,#206,#50,.T.);
#192=EDGE_CURVE('',#211,#218,#51,.T.);
#193=EDGE_CURVE('',#223,#223,#85,.T.);
#194=EDGE_CURVE('',#204,#203,#52,.T.);
#195=EDGE_CURVE('',#210,#213,#53,.T.);
#196=EDGE_CURVE('',#224,#224,#86,.T.);
#197=EDGE_CURVE('',#225,#225,#87,.T.);
#198=EDGE_CURVE('',#205,#212,#54,.T.);
#199=EDGE_CURVE('',#226,#226,#88,.T.);
#200=VERTEX_POINT('',#456);
#201=VERTEX_POINT('',#468);
#202=VERTEX_POINT('',#470);
#203=VERTEX_POINT('',#472);
#204=VERTEX_POINT('',#473);
#205=VERTEX_POINT('',#475);
#206=VERTEX_POINT('',#477);
#207=VERTEX_POINT('',#479);
#208=VERTEX_POINT('',#481);
#209=VERTEX_POINT('',#483);
#210=VERTEX_POINT('',#485);
#211=VERTEX_POINT('',#489);
#212=VERTEX_POINT('',#490);
#213=VERTEX_POINT('',#492);
#214=VERTEX_POINT('',#494);
#215=VERTEX_POINT('',#498);
#216=VERTEX_POINT('',#499);
#217=VERTEX_POINT('',#501);
#218=VERTEX_POINT('',#503);
#219=VERTEX_POINT('',#517);
#220=VERTEX_POINT('',#519);
#221=VERTEX_POINT('',#521);
#222=VERTEX_POINT('',#525);
#223=VERTEX_POINT('',#537);
#224=VERTEX_POINT('',#544);
#225=VERTEX_POINT('',#546);
#226=VERTEX_POINT('',#554);
#227=VERTEX_POINT('',#556);
#228=B_SPLINE_CURVE_WITH_KNOTS('',3,(#445,#446,#447,#448,#449,#450,#451,
#452,#453,#454,#455),.UNSPECIFIED.,.T.,.F.,(1,1,1,1,1,1,1,1,1,1,1,1,1,1,
1),(-0.00141183833071901,-0.000941225553812674,-0.000470612776906337,2.56863989780958E-19,
0.000470612776906337,0.000941225553812674,0.00141183833071901,0.00188245110762535,
0.00235306388453169,0.00282367666143802,0.00329428943834436,0.0037649022152507,
0.00423551499215703,0.00470612776906337,0.00517674054596971),
 .UNSPECIFIED.);
#229=B_SPLINE_CURVE_WITH_KNOTS('',3,(#457,#458,#459,#460,#461,#462,#463,
#464,#465,#466,#467),.UNSPECIFIED.,.T.,.F.,(1,1,1,1,1,1,1,1,1,1,1,1,1,1,
1),(-0.00141183833071901,-0.000941225553812673,-0.000470612776906336,1.45073234640619E-18,
0.000470612776906338,0.000941225553812676,0.00141183833071901,0.00188245110762535,
0.00235306388453169,0.00282367666143802,0.00329428943834436,0.0037649022152507,
0.00423551499215704,0.00470612776906337,0.00517674054596971),
 .UNSPECIFIED.);
#230=B_SPLINE_CURVE_WITH_KNOTS('',3,(#506,#507,#508,#509,#510,#511,#512,
#513,#514,#515,#516),.UNSPECIFIED.,.T.,.F.,(1,1,1,1,1,1,1,1,1,1,1,1,1,1,
1),(-0.00141496278537983,-0.000943308523586553,-0.000471654261793276,1.05026924819159E-20,
0.000471654261793277,0.000943308523586553,0.00141496278537983,0.00188661704717311,
0.00235827130896638,0.00282992557075966,0.00330157983255294,0.00377323409434621,
0.00424488835613949,0.00471654261793277,0.00518819687972604),
 .UNSPECIFIED.);
#231=EDGE_LOOP('',(#89));
#232=EDGE_LOOP('',(#90));
#233=EDGE_LOOP('',(#91));
#234=EDGE_LOOP('',(#92,#93,#94,#95,#96,#97,#98,#99));
#235=EDGE_LOOP('',(#100,#101,#102,#103));
#236=EDGE_LOOP('',(#104,#105,#106,#107));
#237=EDGE_LOOP('',(#108));
#238=EDGE_LOOP('',(#109,#110,#111,#112));
#239=EDGE_LOOP('',(#113));
#240=EDGE_LOOP('',(#114));
#241=EDGE_LOOP('',(#115,#116,#117,#118));
#242=EDGE_LOOP('',(#119,#120,#121,#122,#123,#124,#125));
#243=EDGE_LOOP('',(#126,#127,#128,#129,#130,#131,#132));
#244=EDGE_LOOP('',(#133));
#245=EDGE_LOOP('',(#134,#135,#136,#137));
#246=EDGE_LOOP('',(#138,#139));
#247=EDGE_LOOP('',(#140,#141,#142));
#248=EDGE_LOOP('',(#143));
#249=EDGE_LOOP('',(#144));
#250=EDGE_LOOP('',(#145,#146,#147,#148,#149,#150));
#251=EDGE_LOOP('',(#151,#152,#153));
#252=EDGE_LOOP('',(#154));
#253=EDGE_LOOP('',(#155));
#254=EDGE_LOOP('',(#156));
#255=EDGE_LOOP('',(#157));
#256=EDGE_LOOP('',(#158));
#257=EDGE_LOOP('',(#159));
#258=EDGE_LOOP('',(#160));
#259=EDGE_LOOP('',(#161));
#260=EDGE_LOOP('',(#162));
#261=FACE_BOUND('',#231,.T.);
#262=FACE_BOUND('',#232,.T.);
#263=FACE_BOUND('',#233,.T.);
#264=FACE_BOUND('',#234,.T.);
#265=FACE_BOUND('',#235,.T.);
#266=FACE_BOUND('',#236,.T.);
#267=FACE_BOUND('',#237,.T.);
#268=FACE_BOUND('',#238,.T.);
#269=FACE_BOUND('',#239,.T.);
#270=FACE_BOUND('',#240,.T.);
#271=FACE_BOUND('',#241,.T.);
#272=FACE_BOUND('',#242,.T.);
#273=FACE_BOUND('',#243,.T.);
#274=FACE_BOUND('',#244,.T.);
#275=FACE_BOUND('',#245,.T.);
#276=FACE_BOUND('',#246,.T.);
#277=FACE_BOUND('',#247,.T.);
#278=FACE_BOUND('',#248,.T.);
#279=FACE_BOUND('',#249,.T.);
#280=FACE_BOUND('',#250,.T.);
#281=FACE_BOUND('',#251,.T.);
#282=FACE_BOUND('',#252,.T.);
#283=FACE_BOUND('',#253,.T.);
#284=FACE_BOUND('',#254,.T.);
#285=FACE_BOUND('',#255,.T.);
#286=FACE_BOUND('',#256,.T.);
#287=FACE_BOUND('',#257,.T.);
#288=FACE_BOUND('',#258,.T.);
#289=FACE_BOUND('',#259,.T.);
#290=FACE_BOUND('',#260,.T.);
#291=FACE_BOUND('',#20,.T.);
#292=CYLINDRICAL_SURFACE('',#329,2.5146);
#293=CYLINDRICAL_SURFACE('',#338,1.9939);
#294=CYLINDRICAL_SURFACE('',#353,0.6);
#295=CYLINDRICAL_SURFACE('',#354,0.6);
#296=CYLINDRICAL_SURFACE('',#355,0.6);
#297=CYLINDRICAL_SURFACE('',#356,1.6637);
#298=ADVANCED_FACE('',(#261,#262,#263,#264),#292,.T.);
#299=ADVANCED_FACE('',(#265),#22,.T.);
#300=ADVANCED_FACE('',(#266),#23,.F.);
#301=ADVANCED_FACE('',(#267,#268),#293,.T.);
#302=ADVANCED_FACE('',(#269,#270),#24,.F.);
#303=ADVANCED_FACE('',(#271),#25,.T.);
#304=ADVANCED_FACE('',(#272),#26,.F.);
#305=ADVANCED_FACE('',(#273),#27,.F.);
#306=ADVANCED_FACE('',(#274,#275),#28,.F.);
#307=ADVANCED_FACE('',(#276),#29,.F.);
#308=ADVANCED_FACE('',(#277),#30,.F.);
#309=ADVANCED_FACE('',(#278,#279,#280),#31,.F.);
#310=ADVANCED_FACE('',(#281),#32,.T.);
#311=ADVANCED_FACE('',(#282,#283),#294,.F.);
#312=ADVANCED_FACE('',(#284,#285),#295,.F.);
#313=ADVANCED_FACE('',(#286,#287),#296,.F.);
#314=ADVANCED_FACE('',(#288,#289),#297,.F.);
#315=ADVANCED_FACE('',(#290,#291),#21,.F.);
#316=CLOSED_SHELL('',(#298,#299,#300,#301,#302,#303,#304,#305,#306,#307,
#308,#309,#310,#311,#312,#313,#314,#315));
#317=STYLED_ITEM('',(#318),#325);
#318=PRESENTATION_STYLE_ASSIGNMENT((#319));
#319=SURFACE_STYLE_USAGE(.BOTH.,#320);
#320=SURFACE_SIDE_STYLE('',(#321));
#321=SURFACE_STYLE_FILL_AREA(#322);
#322=FILL_AREA_STYLE('',(#323));
#323=FILL_AREA_STYLE_COLOUR('',#324);
#324=COLOUR_RGB('',0.699999988079071,0.643062174320221,0.5593301653862);
#325=MANIFOLD_SOLID_BREP('',#316);
#326=SHAPE_DEFINITION_REPRESENTATION(#563,#327);
#327=SHAPE_REPRESENTATION('ProbeAdapterOR1',(#328),#558);
#328=AXIS2_PLACEMENT_3D('',#443,#359,#360);
#329=AXIS2_PLACEMENT_3D('',#444,#361,#362);
#330=AXIS2_PLACEMENT_3D('',#469,#363,#364);
#331=AXIS2_PLACEMENT_3D('',#471,#365,#366);
#332=AXIS2_PLACEMENT_3D('',#476,#368,#369);
#333=AXIS2_PLACEMENT_3D('',#480,#371,#372);
#334=AXIS2_PLACEMENT_3D('',#484,#374,#375);
#335=AXIS2_PLACEMENT_3D('',#487,#377,#378);
#336=AXIS2_PLACEMENT_3D('',#496,#383,#384);
#337=AXIS2_PLACEMENT_3D('',#500,#386,#387);
#338=AXIS2_PLACEMENT_3D('',#505,#390,#391);
#339=AXIS2_PLACEMENT_3D('',#520,#393,#394);
#340=AXIS2_PLACEMENT_3D('',#523,#396,#397);
#341=AXIS2_PLACEMENT_3D('',#524,#398,#399);
#342=AXIS2_PLACEMENT_3D('',#526,#400,#401);
#343=AXIS2_PLACEMENT_3D('',#529,#404,#405);
#344=AXIS2_PLACEMENT_3D('',#532,#408,#409);
#345=AXIS2_PLACEMENT_3D('',#535,#412,#413);
#346=AXIS2_PLACEMENT_3D('',#536,#414,#415);
#347=AXIS2_PLACEMENT_3D('',#538,#416,#417);
#348=AXIS2_PLACEMENT_3D('',#540,#419,#420);
#349=AXIS2_PLACEMENT_3D('',#542,#422,#423);
#350=AXIS2_PLACEMENT_3D('',#543,#424,#425);
#351=AXIS2_PLACEMENT_3D('',#545,#426,#427);
#352=AXIS2_PLACEMENT_3D('',#548,#429,#430);
#353=AXIS2_PLACEMENT_3D('',#549,#431,#432);
#354=AXIS2_PLACEMENT_3D('',#550,#433,#434);
#355=AXIS2_PLACEMENT_3D('',#551,#435,#436);
#356=AXIS2_PLACEMENT_3D('',#552,#437,#438);
#357=AXIS2_PLACEMENT_3D('',#553,#439,#440);
#358=AXIS2_PLACEMENT_3D('',#555,#441,#442);
#359=DIRECTION('',(0.,0.,1.));
#360=DIRECTION('',(1.,0.,0.));
#361=DIRECTION('',(0.,-1.,0.));
#362=DIRECTION('',(0.,0.,-1.));
#363=DIRECTION('',(0.,-1.,0.));
#364=DIRECTION('',(0.,0.,-1.));
#365=DIRECTION('',(0.,1.,0.));
#366=DIRECTION('',(0.,0.,1.));
#367=DIRECTION('',(0.,-1.,0.));
#368=DIRECTION('',(0.,1.,0.));
#369=DIRECTION('',(0.,0.,1.));
#370=DIRECTION('',(0.,-1.,0.));
#371=DIRECTION('',(0.,-1.,0.));
#372=DIRECTION('',(0.,0.,-1.));
#373=DIRECTION('',(0.,-1.,0.));
#374=DIRECTION('',(0.,-1.,0.));
#375=DIRECTION('',(0.,0.,-1.));
#376=DIRECTION('',(0.,-1.,0.));
#377=DIRECTION('',(0.,-1.,0.));
#378=DIRECTION('',(0.,0.,-1.));
#379=DIRECTION('',(-7.05539254562052E-17,0.,1.));
#380=DIRECTION('',(1.,0.,0.));
#381=DIRECTION('',(-7.05539254562052E-17,0.,-1.));
#382=DIRECTION('',(1.,0.,0.));
#383=DIRECTION('',(0.,1.,0.));
#384=DIRECTION('',(0.,0.,1.));
#385=DIRECTION('',(-7.05539254562052E-17,0.,-1.));
#386=DIRECTION('',(0.,1.,0.));
#387=DIRECTION('',(1.,0.,0.));
#388=DIRECTION('',(-7.05539254562052E-17,0.,1.));
#389=DIRECTION('',(1.,0.,0.));
#390=DIRECTION('',(0.,-1.,0.));
#391=DIRECTION('',(0.,0.,-1.));
#392=DIRECTION('',(0.,-1.,0.));
#393=DIRECTION('',(0.,1.,0.));
#394=DIRECTION('',(1.,0.,0.));
#395=DIRECTION('',(0.,-1.,0.));
#396=DIRECTION('',(0.,-1.,0.));
#397=DIRECTION('',(0.,0.,-1.));
#398=DIRECTION('',(0.,-1.,0.));
#399=DIRECTION('',(0.,0.,1.));
#400=DIRECTION('',(0.,-1.,0.));
#401=DIRECTION('',(0.,0.,-1.));
#402=DIRECTION('',(-7.05539254562052E-17,0.,-1.));
#403=DIRECTION('',(-7.05539254562052E-17,0.,1.));
#404=DIRECTION('',(-1.,0.,7.05539254562052E-17));
#405=DIRECTION('',(7.05539254562052E-17,0.,1.));
#406=DIRECTION('',(0.,-1.,0.));
#407=DIRECTION('',(-7.05539254562052E-17,0.,-1.));
#408=DIRECTION('',(1.,0.,7.05539254562052E-17));
#409=DIRECTION('',(7.05539254562052E-17,0.,-1.));
#410=DIRECTION('',(-7.05539254562052E-17,0.,1.));
#411=DIRECTION('',(0.,-1.,0.));
#412=DIRECTION('',(0.,0.,-1.));
#413=DIRECTION('',(-1.,0.,0.));
#414=DIRECTION('',(0.,0.,-1.));
#415=DIRECTION('',(0.,-1.,0.));
#416=DIRECTION('',(0.,1.,0.));
#417=DIRECTION('',(0.,0.,1.));
#418=DIRECTION('',(1.,0.,0.));
#419=DIRECTION('',(0.,-1.,0.));
#420=DIRECTION('',(0.,0.,-1.));
#421=DIRECTION('',(1.,0.,0.));
#422=DIRECTION('',(0.,-1.09449038207703E-16,-1.));
#423=DIRECTION('',(0.,1.,-1.09449038207703E-16));
#424=DIRECTION('',(0.,-1.09449038207703E-16,-1.));
#425=DIRECTION('',(0.,-1.,1.09449038207703E-16));
#426=DIRECTION('',(0.,-1.09449038207703E-16,-1.));
#427=DIRECTION('',(0.,-1.,1.09449038207703E-16));
#428=DIRECTION('',(-1.,0.,0.));
#429=DIRECTION('',(0.,1.,0.));
#430=DIRECTION('',(0.,0.,1.));
#431=DIRECTION('',(0.,-1.09449038207703E-16,-1.));
#432=DIRECTION('',(0.,-1.,1.09449038207703E-16));
#433=DIRECTION('',(0.,-1.09449038207703E-16,-1.));
#434=DIRECTION('',(0.,-1.,1.09449038207703E-16));
#435=DIRECTION('',(0.,0.,-1.));
#436=DIRECTION('',(0.,-1.,0.));
#437=DIRECTION('',(0.,-1.,0.));
#438=DIRECTION('',(0.,0.,1.));
#439=DIRECTION('',(0.,-1.,0.));
#440=DIRECTION('',(0.,0.,-1.));
#441=DIRECTION('',(0.,1.,0.));
#442=DIRECTION('',(0.,0.,-1.));
#443=CARTESIAN_POINT('',(0.,0.,0.));
#444=CARTESIAN_POINT('',(0.,57.15,7.34855657769963E-15));
#445=CARTESIAN_POINT('',(-0.474324182807079,38.7872470668567,-2.47866311614905));
#446=CARTESIAN_POINT('',(0.00204461196605664,38.9679867652047,-2.53250031384258));
#447=CARTESIAN_POINT('',(0.466145734942852,38.758286603097,-2.47893562848059));
#448=CARTESIAN_POINT('',(0.646036881290266,38.2828368814803,-2.42865843583818));
#449=CARTESIAN_POINT('',(0.436741417221843,37.8183336450973,-2.4855403736222));
#450=CARTESIAN_POINT('',(-0.0398457893141652,37.6387731018832,-2.53214376884379));
#451=CARTESIAN_POINT('',(-0.502717693976538,37.8475829800853,-2.47180139040954));
#452=CARTESIAN_POINT('',(-0.683120832820342,38.3239204192806,-2.41850114864991));
#453=CARTESIAN_POINT('',(-0.474324182807079,38.7872470668567,-2.47866311614905));
#454=CARTESIAN_POINT('',(0.00204461196605664,38.9679867652047,-2.53250031384258));
#455=CARTESIAN_POINT('',(0.466145734942852,38.758286603097,-2.47893562848059));
#456=CARTESIAN_POINT('',(2.67477854597279E-16,38.9029134551288,-2.51459999999999));
#457=CARTESIAN_POINT('',(-0.474324182807077,41.7844470668567,-2.47866311614905));
#458=CARTESIAN_POINT('',(0.00204461196605348,41.9651867652047,-2.53250031384258));
#459=CARTESIAN_POINT('',(0.466145734942863,41.755486603097,-2.47893562848059));
#460=CARTESIAN_POINT('',(0.646036881290265,41.2800368814803,-2.42865843583817));
#461=CARTESIAN_POINT('',(0.436741417221839,40.8155336450973,-2.4855403736222));
#462=CARTESIAN_POINT('',(-0.0398457893141668,40.6359731018832,-2.53214376884379));
#463=CARTESIAN_POINT('',(-0.502717693976538,40.8447829800853,-2.47180139040954));
#464=CARTESIAN_POINT('',(-0.683120832820342,41.3211204192806,-2.41850114864991));
#465=CARTESIAN_POINT('',(-0.474324182807077,41.7844470668567,-2.47866311614905));
#466=CARTESIAN_POINT('',(0.00204461196605348,41.9651867652047,-2.53250031384258));
#467=CARTESIAN_POINT('',(0.466145734942863,41.755486603097,-2.47893562848059));
#468=CARTESIAN_POINT('',(1.51067798932231E-15,41.9001134551287,-2.51459999999999));
#469=CARTESIAN_POINT('',(0.,57.15,7.34855657769963E-15));
#470=CARTESIAN_POINT('',(0.,57.15,-2.51459999999999));
#471=CARTESIAN_POINT('',(0.,44.45,7.34855657769963E-15));
#472=CARTESIAN_POINT('',(2.49605891757386,44.45,-0.304799999999995));
#473=CARTESIAN_POINT('',(-2.49605891757386,44.45,-0.304799999999994));
#474=CARTESIAN_POINT('',(2.49605891757386,57.15,-0.304799999999995));
#475=CARTESIAN_POINT('',(2.49605891757386,34.544,-0.304799999999993));
#476=CARTESIAN_POINT('',(0.,34.544,7.34855657769963E-15));
#477=CARTESIAN_POINT('',(1.016,34.544,2.30020806884943));
#478=CARTESIAN_POINT('',(1.016,57.15,2.30020806884943));
#479=CARTESIAN_POINT('',(1.016,12.7,2.30020806884943));
#480=CARTESIAN_POINT('',(0.,12.7,7.34855657769963E-15));
#481=CARTESIAN_POINT('',(-1.016,12.7,2.30020806884943));
#482=CARTESIAN_POINT('',(-1.016,57.15,2.30020806884943));
#483=CARTESIAN_POINT('',(-1.016,34.544,2.30020806884943));
#484=CARTESIAN_POINT('',(0.,34.544,7.34855657769963E-15));
#485=CARTESIAN_POINT('',(-2.49605891757386,34.544,-0.304799999999993));
#486=CARTESIAN_POINT('',(-2.49605891757386,57.15,-0.304799999999995));
#487=CARTESIAN_POINT('',(0.,34.544,0.));
#488=CARTESIAN_POINT('',(1.016,34.544,-0.5588));
#489=CARTESIAN_POINT('',(1.016,34.544,-0.5588));
#490=CARTESIAN_POINT('',(1.016,34.544,-0.304799999999993));
#491=CARTESIAN_POINT('',(0.,34.544,-0.304799999999993));
#492=CARTESIAN_POINT('',(-1.016,34.544,-0.304799999999993));
#493=CARTESIAN_POINT('',(-1.016,34.544,2.5146));
#494=CARTESIAN_POINT('',(-1.016,34.544,-0.5588));
#495=CARTESIAN_POINT('',(-1.016,34.544,-0.5588));
#496=CARTESIAN_POINT('',(0.,0.,0.));
#497=CARTESIAN_POINT('',(-1.016,0.,2.5146));
#498=CARTESIAN_POINT('',(-1.016,0.,1.71562851748273));
#499=CARTESIAN_POINT('',(-1.016,0.,-0.5588));
#500=CARTESIAN_POINT('',(0.,0.,0.));
#501=CARTESIAN_POINT('',(1.016,0.,1.71562851748273));
#502=CARTESIAN_POINT('',(1.016,0.,-0.5588));
#503=CARTESIAN_POINT('',(1.016,0.,-0.5588));
#504=CARTESIAN_POINT('',(-1.016,0.,-0.5588));
#505=CARTESIAN_POINT('',(0.,12.7,0.));
#506=CARTESIAN_POINT('',(-0.470503524964262,2.52737008903696,-1.94870991342719));
#507=CARTESIAN_POINT('',(4.16547142663713E-5,2.33209569390934,-2.01648788867803));
#508=CARTESIAN_POINT('',(0.470336906107195,2.52744713532567,-1.94873853186068));
#509=CARTESIAN_POINT('',(0.664897415789505,2.9964338289785,-1.87784212052379));
#510=CARTESIAN_POINT('',(0.470072618247107,3.46759888991818,-1.94879062823163));
#511=CARTESIAN_POINT('',(0.000362047530725039,3.66198949911656,-2.01643996763144));
#512=CARTESIAN_POINT('',(-0.469998110644024,3.46764279158662,-1.94884940433838));
#513=CARTESIAN_POINT('',(-0.664874554697021,2.99730275178269,-1.8778345284978));
#514=CARTESIAN_POINT('',(-0.470503524964262,2.52737008903696,-1.94870991342719));
#515=CARTESIAN_POINT('',(4.16547142663713E-5,2.33209569390934,-2.01648788867803));
#516=CARTESIAN_POINT('',(0.470336906107195,2.52744713532567,-1.94873853186068));
#517=CARTESIAN_POINT('',(-2.27656863791996E-16,2.3972,-1.9939));
#518=CARTESIAN_POINT('',(-1.016,12.7,1.71562851748273));
#519=CARTESIAN_POINT('',(-1.016,12.7,1.71562851748273));
#520=CARTESIAN_POINT('',(0.,12.7,0.));
#521=CARTESIAN_POINT('',(1.016,12.7,1.71562851748273));
#522=CARTESIAN_POINT('',(1.016,12.7,1.71562851748273));
#523=CARTESIAN_POINT('',(0.,57.15,7.34855657769963E-15));
#524=CARTESIAN_POINT('',(0.,57.15,7.34885785037831E-15));
#525=CARTESIAN_POINT('',(0.,57.15,1.66370000000001));
#526=CARTESIAN_POINT('',(0.,12.7,7.34855657769963E-15));
#527=CARTESIAN_POINT('',(-1.016,12.7,7.42023936596313E-15));
#528=CARTESIAN_POINT('',(1.016,12.7,7.42023936596313E-15));
#529=CARTESIAN_POINT('',(-1.016,34.544,2.5146));
#530=CARTESIAN_POINT('',(-1.016,34.544,-0.5588));
#531=CARTESIAN_POINT('',(-1.016,34.544,2.5146));
#532=CARTESIAN_POINT('',(1.016,34.544,-0.5588));
#533=CARTESIAN_POINT('',(1.016,34.544,-0.5588));
#534=CARTESIAN_POINT('',(1.016,34.544,-0.5588));
#535=CARTESIAN_POINT('',(-1.016,34.544,-0.5588));
#536=CARTESIAN_POINT('',(-2.16840434497101E-16,2.9972,-0.5588));
#537=CARTESIAN_POINT('',(-2.16840434497101E-16,2.3972,-0.5588));
#538=CARTESIAN_POINT('',(-57.5908691137753,44.45,-0.304799999999994));
#539=CARTESIAN_POINT('',(-57.5908691137753,44.45,-0.304799999999994));
#540=CARTESIAN_POINT('',(-57.5908691137753,34.544,2.51460000000001));
#541=CARTESIAN_POINT('',(-57.5908691137753,34.544,-0.304799999999993));
#542=CARTESIAN_POINT('',(-57.5908691137753,34.544,-0.304799999999993));
#543=CARTESIAN_POINT('',(-0.0185410824261395,38.3032,-0.304799999999993));
#544=CARTESIAN_POINT('',(-0.0185410824261395,37.7032,-0.304799999999993));
#545=CARTESIAN_POINT('',(-0.0185410824261393,41.3004,-0.304799999999993));
#546=CARTESIAN_POINT('',(-0.0185410824261393,40.7004,-0.304799999999993));
#547=CARTESIAN_POINT('',(57.5908691137753,34.544,-0.304799999999993));
#548=CARTESIAN_POINT('',(57.5908691137753,34.544,2.51460000000001));
#549=CARTESIAN_POINT('',(-0.0185410824261393,41.3004,-0.304799999999993));
#550=CARTESIAN_POINT('',(-0.0185410824261395,38.3032,-0.304799999999993));
#551=CARTESIAN_POINT('',(-2.16840434497101E-16,2.9972,-0.5588));
#552=CARTESIAN_POINT('',(0.,57.15,7.34885785037831E-15));
#553=CARTESIAN_POINT('',(0.,49.8946518118761,7.34885785037831E-15));
#554=CARTESIAN_POINT('',(0.,49.8946518118761,-1.66369999999999));
#555=CARTESIAN_POINT('',(0.,49.8946518118761,7.34885785037831E-15));
#556=CARTESIAN_POINT('',(0.,48.895,7.34885785037831E-15));
#557=MECHANICAL_DESIGN_GEOMETRIC_PRESENTATION_REPRESENTATION('',(#317),
#558);
#558=(
GEOMETRIC_REPRESENTATION_CONTEXT(3)
GLOBAL_UNCERTAINTY_ASSIGNED_CONTEXT((#559))
GLOBAL_UNIT_ASSIGNED_CONTEXT((#562,#561,#560))
REPRESENTATION_CONTEXT('ProbeAdapterOR1','TOP_LEVEL_ASSEMBLY_PART')
);
#559=UNCERTAINTY_MEASURE_WITH_UNIT(LENGTH_MEASURE(0.005),#562,
'DISTANCE_ACCURACY_VALUE','Maximum Tolerance applied to model');
#560=(
NAMED_UNIT(*)
SI_UNIT($,.STERADIAN.)
SOLID_ANGLE_UNIT()
);
#561=(
NAMED_UNIT(*)
PLANE_ANGLE_UNIT()
SI_UNIT($,.RADIAN.)
);
#562=(
LENGTH_UNIT()
NAMED_UNIT(*)
SI_UNIT(.MILLI.,.METRE.)
);
#563=PRODUCT_DEFINITION_SHAPE('','',#564);
#564=PRODUCT_DEFINITION('','',#566,#565);
#565=PRODUCT_DEFINITION_CONTEXT('',#572,'design');
#566=PRODUCT_DEFINITION_FORMATION_WITH_SPECIFIED_SOURCE('','',#568,
 .NOT_KNOWN.);
#567=PRODUCT_RELATED_PRODUCT_CATEGORY('','',(#568));
#568=PRODUCT('ProbeAdapterOR1','ProbeAdapterOR1','ProbeAdapterOR1',(#570));
#569=PRODUCT_CATEGORY('','');
#570=PRODUCT_CONTEXT('',#572,'mechanical');
#571=APPLICATION_PROTOCOL_DEFINITION('international standard',
'automotive_design',2010,#572);
#572=APPLICATION_CONTEXT(
'core data for automotive mechanical design processes');
ENDSEC;
END-ISO-10303-21;
